Bopology 101:
Riff 12

  _    _ _ _   __3__   __3__     _           _ _
 |    | | | |  | | |   | | |    |   |   |   | | |
-9-|-10-7----------------8-11-|-10-10---7---6-7-8-|
---|------8------------10-----|-------------------|
---|--------9----8-11---------|-7--7----4---3-4-5-|
---|-----------10-------------|-------------------|
---|--------------------------|-------------------|
---|--------------------------|-------------------|
   S              H       H P

   __ __ __         __
  |  |  |  |  |    |  |          |
|-9-10-------------------|-------10---------|
|------11-12-------------|-------10---------|
|-6-7---------12---11-12-|-------9----------|
|------8--9--------------|-------9----------|
|-------------10---9--10-|------------------|
|------------------------|------------------|
                        \

Symbols used in this Tablature

Symbols used ABOVE the grid:
r    = rest __3__
| | |
= triplet
 _
| |
    = 2 eighth notes
r
|
   = quarter rest
|     = quarter note  _ _
| | |
  = 3 eighth notes
r_
|
   = eighth rest
 _
|
    = eighth note
 _ _ _
| | | |
= 4 eighth notes

Symbols used BELOW the grid:
S = slide /  = gliss up into \ = gliss down out of
H = hammer on PO = pull off I = index finger
M = middle finger R  = ring finger P = pinky finger

 


Guitar-Lessons-Riverside-CA.com
copyright 2003 Jeff Brent