Bopology 101:
Riff 6

  r_ _ _    _ _ __      _    ___3___ _3_ _3_
  | | | |  | | |  |    | |   |  |  | ||| |||
|---7------8--------|-10-12------------------|
|-----8------10-----|-------10-11-12-8-----7-|
|-------9------11-8-|-----------------97-89--|
|-------------------|------------------------|
|-------------------|------------------------|
|-------------------|------------------------|
                      R S            M

  _3_ _3_ _3_ _3_       r        r
  ||| ||| ||| |||   |   |   |    |
|-----------------|---------14-------|
|-876-5-----------|---------12-------|
|------87-65------|---------12-------|
|-----------9-87--|---------12-------|
|---------------9-|-10---------------|
|-----------------|------------------|
  P         R   M S

Symbols used in this Tablature

Symbols used ABOVE the grid:
r    = rest __3__
| | |
= triplet
 _
| |
    = 2 eighth notes
r
|
   = quarter rest
|     = quarter note  _ _
| | |
  = 3 eighth notes
r_
|
   = eighth rest
 _
|
    = eighth note
 _ _ _
| | | |
= 4 eighth notes

Symbols used BELOW the grid:
S = slide /  = gliss up into \ = gliss down out of
H = hammer on PO = pull off I = index finger
M = middle finger R  = ring finger P = pinky finger

 


Guitar-Lessons-Riverside-CA.com
copyright 2003 Jeff Brent